:: новости :: история :: песни :: концерты ::
:: дискография :: видеография :: места ::
:: фотоальбом :: рукописи :: библиотека ::
    ! :: камчатка :: стена :: отзывы :: встречи ::
:: чат :: стихи цою :: обои :: песни цою ::
:: рисунки цою :: ссылки :: войти ::
ПЕСНИ ЦОЮ

Да как по старой по дороге




Автор: не известно
Место: г. Обухов Киевская обл.
Прислал: Виталий Тинков
sheyh@imp.kiev.ua
Бой: такой же как в «Пачка сигарет» + сольный проигрыш (2 гитары)

Intro:

G|-----0--|-----0----|-----0----|
D|---4----|---5------|---7------|
A|-2------|-3--------|-5--------|

1 Куплет

G|-----0---------0--------0--------0----|
D|---4---4-----5---5----7---7----7---7--|
A|-2---------3--------5--------5--------| 2 раза

Em Am C D Dsus4
Да как по старой по д-о-ро-ге ш-е-л паренек
G|-----0-------------0-----------0-------------0-------|
D|---4---4------5-------5------7-----7----7---------7--|
A|-2---------3-------------5------------5--------------|

Лет двадцать шесть было ему на вид
Да уж к закату уклонялся то денек
Парень с ликом восточным молодым знаменитым

2 Куплет

Шел парнишка по дороге и не знал что впереди
Ожидает его смерть от железной руки
И дошедши до средины дороги той
Парень помер заставляя многих плакать за собой

3 Куплет

Вот так все редкие люди уходят не дойдя
О средины дороги и назад не воротясь
Вот так вот жил человек его смерть забрала
Он покинул поле брани не завершив свои дела

1 Куплет повторить

концовка без аккордов:

G|-----0---|-----0-----|-----0-----|-----0-----|
D|---4---4-|---5---5---|---7---7---|---7---7---|
A|-2-------|-3---------|-5---------|-5---------|
2 раза

G|-----0---|-----0-----|-----0-----|-----0-----|
D|---4-----|---5-------|---7-------|---4-------|
A|-2-------|-3---------|-5---------|-2---------|

(C)




Комментарии

Itzel: Arlectis like this just make me want to visit your website even more. http://zbrsrqos.com [url=http://quzflie.com]quzflie[/url] [link=http://vdisad.com]vdisad[/link] 25.10.2015 16:59
Dropya: Super jazzed about getting that knwoh-wo. 24.10.2015 03:31
Sidoel: Hey, kiellr job on that one you guys! http://jgrxrjm.com [url=http://modvvq.com]modvvq[/url] [link=http://mnlloadszkx.com]mnlloadszkx[/link] 22.10.2015 10:46
Isaac: Your potsing lays bare the truth 20.10.2015 13:22
Damino: Articles like this really grease the shafts of knogledwe. 20.10.2015 05:26


* Ваше имя
Ваш комментарий

* Введите код, который вы видите на картинке












RomanKuehl.de